  0
SECTION
  2
HEADER
  9
$ACADVER
  1
AC1015
  9
$ACADMAINTVER
 70
     6
  9
$DWGCODEPAGE
  3
ANSI_1254
  9
$INSBASE
 10
0.0
 20
0.0
 30
0.0
  9
$EXTMIN
 10
0.0
 20
0.0
 30
0.0
  9
$EXTMAX
 10
279.4
 20
215.9
 30
0.0
  9
$LIMMIN
 10
0.0
 20
0.0
  9
$LIMMAX
 10
279.4
 20
215.9
  9
$ORTHOMODE
 70
     0
  9
$REGENMODE
 70
     1
  9
$FILLMODE
 70
     1
  9
$QTEXTMODE
 70
     0
  9
$MIRRTEXT
 70
     1
  9
$LTSCALE
 40
1.0
  9
$ATTMODE
 70
     1
  9
$TEXTSIZE
 40
3.5
  9
$TRACEWID
 40
1.0
  9
$TEXTSTYLE
  7
Standard
  9
$CLAYER
  8
0
  9
$CELTYPE
  6
ByLayer
  9
$CECOLOR
 62
   256
  9
$CELTSCALE
 40
1.0
  9
$DISPSILH
 70
     0
  9
$DIMSCALE
 40
1.0
  9
$DIMASZ
 40
3.5
  9
$DIMEXO
 40
1.0
  9
$DIMDLI
 40
3.75
  9
$DIMRND
 40
0.0
  9
$DIMDLE
 40
0.0
  9
$DIMEXE
 40
1.0
  9
$DIMTP
 40
0.0
  9
$DIMTM
 40
0.0
  9
$DIMTXT
 40
3.5
  9
$DIMCEN
 40
2.5
  9
$DIMTSZ
 40
0.0
  9
$DIMTOL
 70
     0
  9
$DIMLIM
 70
     0
  9
$DIMTIH
 70
     1
  9
$DIMTOH
 70
     1
  9
$DIMSE1
 70
     0
  9
$DIMSE2
 70
     0
  9
$DIMTAD
 70
     1
  9
$DIMZIN
 70
     0
  9
$DIMBLK
  1

  9
$DIMASO
 70
     1
  9
$DIMSHO
 70
     1
  9
$DIMPOST
  1

  9
$DIMAPOST
  1

  9
$DIMALT
 70
     0
  9
$DIMALTD
 70
     3
  9
$DIMALTF
 40
0.0393700787
  9
$DIMLFAC
 40
1.0
  9
$DIMTOFL
 70
     1
  9
$DIMTVP
 40
0.0
  9
$DIMTIX
 70
     0
  9
$DIMSOXD
 70
     0
  9
$DIMSAH
 70
     0
  9
$DIMBLK1
  1

  9
$DIMBLK2
  1

  9
$DIMSTYLE
  2
ISO-25
  9
$DIMCLRD
 70
     0
  9
$DIMCLRE
 70
     0
  9
$DIMCLRT
 70
     0
  9
$DIMTFAC
 40
1.0
  9
$DIMGAP
 40
1.524
  9
$DIMJUST
 70
     0
  9
$DIMSD1
 70
     0
  9
$DIMSD2
 70
     0
  9
$DIMTOLJ
 70
     0
  9
$DIMTZIN
 70
     0
  9
$DIMALTZ
 70
     0
  9
$DIMALTTZ
 70
     0
  9
$DIMUPT
 70
     0
  9
$DIMDEC
 70
     2
  9
$DIMTDEC
 70
     2
  9
$DIMALTU
 70
     2
  9
$DIMALTTD
 70
     3
  9
$DIMTXSTY
  7
Standard
  9
$DIMAUNIT
 70
     0
  9
$DIMADEC
 70
     2
  9
$DIMALTRND
 40
0.0
  9
$DIMAZIN
 70
     0
  9
$DIMDSEP
 70
    44
  9
$DIMATFIT
 70
     3
  9
$DIMFRAC
 70
     0
  9
$DIMLDRBLK
  1

  9
$DIMLUNIT
 70
     2
  9
$DIMLWD
 70
    -2
  9
$DIMLWE
 70
    -2
  9
$DIMTMOVE
 70
     0
  9
$LUNITS
 70
     2
  9
$LUPREC
 70
     2
  9
$SKETCHINC
 40
1.0
  9
$FILLETRAD
 40
10.0
  9
$AUNITS
 70
     0
  9
$AUPREC
 70
     2
  9
$MENU
  1
.
  9
$ELEVATION
 40
0.0
  9
$PELEVATION
 40
0.0
  9
$THICKNESS
 40
0.0
  9
$LIMCHECK
 70
     0
  9
$CHAMFERA
 40
0.0
  9
$CHAMFERB
 40
0.0
  9
$CHAMFERC
 40
0.0
  9
$CHAMFERD
 40
0.0
  9
$SKPOLY
 70
     0
  9
$TDCREATE
 40
2458985.633046412
  9
$TDUCREATE
 40
2458985.508046412
  9
$TDUPDATE
 40
2458985.633046667
  9
$TDUUPDATE
 40
2458985.508046667
  9
$TDINDWG
 40
0.0000000116
  9
$TDUSRTIMER
 40
0.0000000116
  9
$USRTIMER
 70
     1
  9
$ANGBASE
 50
0.0
  9
$ANGDIR
 70
     0
  9
$PDMODE
 70
     0
  9
$PDSIZE
 40
-1.0
  9
$PLINEWID
 40
0.0
  9
$SPLFRAME
 70
     0
  9
$SPLINETYPE
 70
     6
  9
$SPLINESEGS
 70
     8
  9
$HANDSEED
  5
CC
  9
$SURFTAB1
 70
     6
  9
$SURFTAB2
 70
     6
  9
$SURFTYPE
 70
     6
  9
$SURFU
 70
     6
  9
$SURFV
 70
     6
  9
$UCSBASE
  2

  9
$UCSNAME
  2

  9
$UCSORG
 10
0.0
 20
0.0
 30
0.0
  9
$UCSXDIR
 10
1.0
 20
0.0
 30
0.0
  9
$UCSYDIR
 10
0.0
 20
1.0
 30
0.0
  9
$UCSORTHOREF
  2

  9
$UCSORTHOVIEW
 70
     0
  9
$UCSORGTOP
 10
0.0
 20
0.0
 30
0.0
  9
$UCSORGBOTTOM
 10
0.0
 20
0.0
 30
0.0
  9
$UCSORGLEFT
 10
0.0
 20
0.0
 30
0.0
  9
$UCSORGRIGHT
 10
0.0
 20
0.0
 30
0.0
  9
$UCSORGFRONT
 10
0.0
 20
0.0
 30
0.0
  9
$UCSORGBACK
 10
0.0
 20
0.0
 30
0.0
  9
$PUCSBASE
  2

  9
$PUCSNAME
  2

  9
$PUCSORG
 10
0.0
 20
0.0
 30
0.0
  9
$PUCSXDIR
 10
1.0
 20
0.0
 30
0.0
  9
$PUCSYDIR
 10
0.0
 20
1.0
 30
0.0
  9
$PUCSORTHOREF
  2

  9
$PUCSORTHOVIEW
 70
     0
  9
$PUCSORGTOP
 10
0.0
 20
0.0
 30
0.0
  9
$PUCSORGBOTTOM
 10
0.0
 20
0.0
 30
0.0
  9
$PUCSORGLEFT
 10
0.0
 20
0.0
 30
0.0
  9
$PUCSORGRIGHT
 10
0.0
 20
0.0
 30
0.0
  9
$PUCSORGFRONT
 10
0.0
 20
0.0
 30
0.0
  9
$PUCSORGBACK
 10
0.0
 20
0.0
 30
0.0
  9
$USERI1
 70
     0
  9
$USERI2
 70
     0
  9
$USERI3
 70
     0
  9
$USERI4
 70
     0
  9
$USERI5
 70
     0
  9
$USERR1
 40
0.0
  9
$USERR2
 40
0.0
  9
$USERR3
 40
0.0
  9
$USERR4
 40
0.0
  9
$USERR5
 40
0.0
  9
$WORLDVIEW
 70
     1
  9
$SHADEDGE
 70
     3
  9
$SHADEDIF
 70
    70
  9
$TILEMODE
 70
     1
  9
$MAXACTVP
 70
    64
  9
$PINSBASE
 10
0.0
 20
0.0
 30
0.0
  9
$PLIMCHECK
 70
     0
  9
$PEXTMIN
 10
1.0000000000E+20
 20
1.0000000000E+20
 30
1.0000000000E+20
  9
$PEXTMAX
 10
-1.0000000000E+20
 20
-1.0000000000E+20
 30
-1.0000000000E+20
  9
$PLIMMIN
 10
0.0
 20
0.0
  9
$PLIMMAX
 10
420.0
 20
297.0
  9
$UNITMODE
 70
     0
  9
$VISRETAIN
 70
     1
  9
$PLINEGEN
 70
     0
  9
$PSLTSCALE
 70
     1
  9
$TREEDEPTH
 70
  3020
  9
$CMLSTYLE
  2
Standard
  9
$CMLJUST
 70
     0
  9
$CMLSCALE
 40
20.0
  9
$PROXYGRAPHICS
 70
     1
  9
$MEASUREMENT
 70
     1
  9
$CELWEIGHT
370
    -1
  9
$ENDCAPS
280
     0
  9
$JOINSTYLE
280
     0
  9
$LWDISPLAY
290
     1
  9
$INSUNITS
 70
     4
  9
$HYPERLINKBASE
  1

  9
$STYLESHEET
  1

  9
$XEDIT
290
     1
  9
$CEPSNTYPE
380
     0
  9
$PSTYLEMODE
290
     1
  9
$FINGERPRINTGUID
  2
{840bed68-9389-48a3-8734-54a3e888b4e9}
  9
$VERSIONGUID
  2
{FAEB1C32-E019-11D5-929B-00C0DF256EC4}
  9
$EXTNAMES
290
     1
  9
$PSVPSCALE
 40
0.0
  9
$OLESTARTUP
290
     0
  0
ENDSEC
  0
SECTION
  2
CLASSES
  0
CLASS
  1
ACDBDICTIONARYWDFLT
  2
AcDbDictionaryWithDefault
  3
ObjectDBX Classes
 90
        0
280
     0
281
     0
  0
CLASS
  1
VISUALSTYLE
  2
AcDbVisualStyle
  3
ObjectDBX Classes
 90
     4095
280
     0
281
     0
  0
CLASS
  1
MATERIAL
  2
AcDbMaterial
  3
ObjectDBX Classes
 90
     1153
280
     0
281
     0
  0
CLASS
  1
SCALE
  2
AcDbScale
  3
ObjectDBX Classes
 90
     1153
280
     0
281
     0
  0
CLASS
  1
TABLESTYLE
  2
AcDbTableStyle
  3
ObjectDBX Classes
 90
     4095
280
     0
281
     0
  0
CLASS
  1
MLEADERSTYLE
  2
AcDbMLeaderStyle
  3
ACDB_MLEADERSTYLE_CLASS
 90
     4095
280
     0
281
     0
  0
CLASS
  1
SUN
  2
AcDbSun
  3
SCENEOE
 90
     1153
280
     0
281
     0
  0
CLASS
  1
ACDBPLACEHOLDER
  2
AcDbPlaceHolder
  3
ObjectDBX Classes
 90
        0
280
     0
281
     0
  0
CLASS
  1
LAYOUT
  2
AcDbLayout
  3
ObjectDBX Classes
 90
        0
280
     0
281
     0
  0
ENDSEC
  0
SECTION
  2
TABLES
  0
TABLE
  2
VPORT
  5
8
330
0
100
AcDbSymbolTable
 70
     1
  0
VPORT
  5
29
330
8
100
AcDbSymbolTableRecord
100
AcDbViewportTableRecord
  2
*Active
 70
     0
 10
0.0
 20
0.0
 11
1.0
 21
1.0
 12
139.7
 22
107.95
 13
0.0
 23
0.0
 14
10.0
 24
10.0
 15
10.0
 25
10.0
 16
0.0
 26
0.0
 36
1.0
 17
0.0
 27
0.0
 37
0.0
 40
215.9
 41
1.2941176471
 42
50.0
 43
0.0
 44
0.0
 50
0.0
 51
0.0
 71
     0
 72
  2000
 73
     1
 74
     3
 75
     0
 76
     0
 77
     0
 78
     0
281
     0
 65
     1
110
0.0
120
0.0
130
0.0
111
1.0
121
0.0
131
0.0
112
0.0
122
1.0
132
0.0
 79
     0
146
0.0
  0
ENDTAB
  0
TABLE
  2
LTYPE
  5
5
330
0
100
AcDbSymbolTable
 70
     6
  0
LTYPE
  5
14
330
5
100
AcDbSymbolTableRecord
100
AcDbLinetypeTableRecord
  2
ByBlock
 70
     0
  3

 72
    65
 73
     0
 40
0.0
  0
LTYPE
  5
15
330
5
100
AcDbSymbolTableRecord
100
AcDbLinetypeTableRecord
  2
ByLayer
 70
     0
  3

 72
    65
 73
     0
 40
0.0
  0
LTYPE
  5
16
330
5
100
AcDbSymbolTableRecord
100
AcDbLinetypeTableRecord
  2
Continuous
 70
     0
  3
Solid line
 72
    65
 73
     0
 40
0.0
  0
LTYPE
  5
6E
330
5
100
AcDbSymbolTableRecord
100
AcDbLinetypeTableRecord
  2
HIDDEN
 70
     0
  3
Hidden __ __ __ __ __ __ __ __ __ __ __ __ __ __
 72
    65
 73
     2
 40
1.905
 49
1.27
 74
     0
 49
-0.635
 74
     0
  0
LTYPE
  5
6F
330
5
100
AcDbSymbolTableRecord
100
AcDbLinetypeTableRecord
  2
PHANTOM
 70
     0
  3
Phantom ______  __  __  ______  __  __  ______
 72
    65
 73
     6
 40
12.7
 49
6.35
 74
     0
 49
-1.27
 74
     0
 49
1.27
 74
     0
 49
-1.27
 74
     0
 49
1.27
 74
     0
 49
-1.27
 74
     0
  0
LTYPE
  5
70
330
5
100
AcDbSymbolTableRecord
100
AcDbLinetypeTableRecord
  2
CENTER
 70
     0
  3
Center ____ _ ____ _ ____ _ ____ _ ____ _ ____
 72
    65
 73
     4
 40
10.16
 49
6.35
 74
     0
 49
-1.27
 74
     0
 49
1.27
 74
     0
 49
-1.27
 74
     0
  0
LTYPE
  5
71
330
5
100
AcDbSymbolTableRecord
100
AcDbLinetypeTableRecord
  2
CENTERX2
 70
     0
  3
Center (2x) ________  __  ________  __  _____
 72
    65
 73
     4
 40
20.32
 49
12.7
 74
     0
 49
-2.54
 74
     0
 49
2.54
 74
     0
 49
-2.54
 74
     0
  0
LTYPE
  5
72
330
5
100
AcDbSymbolTableRecord
100
AcDbLinetypeTableRecord
  2
DOT2
 70
     0
  3
Dot (.5x) ........................................
 72
    65
 73
     2
 40
0.635
 49
0.0
 74
     0
 49
-0.635
 74
     0
  0
ENDTAB
  0
TABLE
  2
LAYER
  5
2
330
0
100
AcDbSymbolTable
 70
    17
  0
LAYER
  5
10
330
2
100
AcDbSymbolTableRecord
100
AcDbLayerTableRecord
  2
0
 70
     0
 62
     7
  6
Continuous
370
    -3
390
F
  0
LAYER
  5
73
330
2
100
AcDbSymbolTableRecord
100
AcDbLayerTableRecord
  2
FORMAT
 70
     0
 62
     7
  6
Continuous
370
    -3
390
F
  0
LAYER
  5
74
330
2
100
AcDbSymbolTableRecord
100
AcDbLayerTableRecord
  2
YARDIMCI_GEOMETRI
 70
     0
 62
    -6
  6
Continuous
290
     0
370
    -3
390
F
  0
LAYER
  5
75
330
2
100
AcDbSymbolTableRecord
100
AcDbLayerTableRecord
  2
SAYFA_CERCEVESI
 70
     0
 62
     7
  6
Continuous
370
    25
390
F
  0
LAYER
  5
76
330
2
100
AcDbSymbolTableRecord
100
AcDbLayerTableRecord
  2
ANTET
 70
     0
 62
     7
  6
Continuous
370
    -3
390
F
  0
LAYER
  5
77
330
2
100
AcDbSymbolTableRecord
100
AcDbLayerTableRecord
  2
OLCU
 70
     0
 62
   150
  6
Continuous
370
    -3
390
F
  0
LAYER
  5
78
330
2
100
AcDbSymbolTableRecord
100
AcDbLayerTableRecord
  2
METIN
 70
     0
 62
    96
  6
Continuous
370
    -3
390
F
  0
LAYER
  5
79
330
2
100
AcDbSymbolTableRecord
100
AcDbLayerTableRecord
  2
BALON
 70
     0
 62
     5
  6
Continuous
370
    -3
390
F
  0
LAYER
  5
7A
330
2
100
AcDbSymbolTableRecord
100
AcDbLayerTableRecord
  2
VURGU
 70
     0
 62
     7
  6
Continuous
370
    -3
390
F
  0
LAYER
  5
7B
330
2
100
AcDbSymbolTableRecord
100
AcDbLayerTableRecord
  2
SILIK
 70
     0
 62
     7
  6
Continuous
370
    -3
390
F
  0
LAYER
  5
7C
330
2
100
AcDbSymbolTableRecord
100
AcDbLayerTableRecord
  2
MODEL
 70
     0
 62
     7
  6
Continuous
370
    -3
390
F
  0
LAYER
  5
7D
330
2
100
AcDbSymbolTableRecord
100
AcDbLayerTableRecord
  2
DETAYLANDıRMA
 70
     0
 62
   190
  6
Continuous
370
    -3
390
F
  0
LAYER
  5
7E
330
2
100
AcDbSymbolTableRecord
100
AcDbLayerTableRecord
  2
TOLERANS
 70
     0
 62
   230
  6
Continuous
370
    -3
390
F
  0
LAYER
  5
7F
330
2
100
AcDbSymbolTableRecord
100
AcDbLayerTableRecord
  2
MERKEZ_CIZGILERI
 70
     0
 62
    30
  6
Continuous
370
    -3
390
F
  0
LAYER
  5
80
330
2
100
AcDbSymbolTableRecord
100
AcDbLayerTableRecord
  2
KESIT-DETAY_CIZGILERI
 70
     0
 62
     7
  6
Continuous
370
    -3
390
F
  0
LAYER
  5
81
330
2
100
AcDbSymbolTableRecord
100
AcDbLayerTableRecord
  2
\U+041E\U+0421\U+0415\U+0412\U+042B\U+0415
 70
     0
 62
     7
  6
Continuous
370
    -3
390
F
  0
LAYER
  5
82
330
2
100
AcDbSymbolTableRecord
100
AcDbLayerTableRecord
  2
\U+0412\U+041E\U+0414\U+042F\U+041D\U+042B\U+0415_\U+0417\U+041D\U+0410\U+041A\U+0418
 70
     0
 62
    11
  6
Continuous
370
    -3
390
F
  0
ENDTAB
  0
TABLE
  2
STYLE
  5
3
330
0
100
AcDbSymbolTable
 70
     1
  0
STYLE
  5
11
330
3
100
AcDbSymbolTableRecord
100
AcDbTextStyleTableRecord
  2
Standard
 70
     0
 40
0.0
 41
1.0
 50
0.0
 71
     0
 42
3.5
  3
txt
  4

  0
ENDTAB
  0
TABLE
  2
VIEW
  5
6
330
0
100
AcDbSymbolTable
 70
     0
  0
ENDTAB
  0
TABLE
  2
UCS
  5
7
330
0
100
AcDbSymbolTable
 70
     0
  0
ENDTAB
  0
TABLE
  2
APPID
  5
9
330
0
100
AcDbSymbolTable
 70
     1
  0
APPID
  5
12
330
9
100
AcDbSymbolTableRecord
100
AcDbRegAppTableRecord
  2
ACAD
 70
     0
  0
ENDTAB
  0
TABLE
  2
DIMSTYLE
  5
A
330
0
100
AcDbSymbolTable
 70
     1
100
AcDbDimStyleTable
  0
DIMSTYLE
105
27
330
A
100
AcDbSymbolTableRecord
100
AcDbDimStyleTableRecord
  2
ISO-25
 70
     0
 41
2.5
 42
0.625
 43
3.75
 44
1.25
 73
     0
 74
     0
 77
     1
 78
     8
140
2.5
141
2.5
143
0.0393700787
147
0.625
171
     3
172
     1
178
     0
271
     2
272
     2
274
     3
278
    44
283
     0
284
     8
340
11
  0
ENDTAB
  0
TABLE
  2
BLOCK_RECORD
  5
1
330
0
100
AcDbSymbolTable
 70
     2
  0
BLOCK_RECORD
  5
1F
330
1
100
AcDbSymbolTableRecord
100
AcDbBlockTableRecord
  2
*Model_Space
340
22
  0
BLOCK_RECORD
  5
1B
330
1
100
AcDbSymbolTableRecord
100
AcDbBlockTableRecord
  2
*Paper_Space
340
1E
  0
BLOCK_RECORD
  5
23
330
1
100
AcDbSymbolTableRecord
100
AcDbBlockTableRecord
  2
*Paper_Space0
340
26
  0
BLOCK_RECORD
  5
87
330
1
100
AcDbSymbolTableRecord
100
AcDbBlockTableRecord
  2
SW_CENTERMARKSYMBOL_0
340
0
102
{BLKREFS
331
92
102
}
  0
ENDTAB
  0
ENDSEC
  0
SECTION
  2
BLOCKS
  0
BLOCK
  5
20
330
1F
100
AcDbEntity
  8
0
100
AcDbBlockBegin
  2
*Model_Space
 70
     0
 10
0.0
 20
0.0
 30
0.0
  3
*Model_Space
  1

  0
ENDBLK
  5
21
330
1F
100
AcDbEntity
  8
0
100
AcDbBlockEnd
  0
BLOCK
  5
1C
330
1B
100
AcDbEntity
 67
     1
  8
0
100
AcDbBlockBegin
  2
*Paper_Space
 70
     0
 10
0.0
 20
0.0
 30
0.0
  3
*Paper_Space
  1

  0
ENDBLK
  5
1D
330
1B
100
AcDbEntity
 67
     1
  8
0
100
AcDbBlockEnd
  0
BLOCK
  5
24
330
23
100
AcDbEntity
  8
0
100
AcDbBlockBegin
  2
*Paper_Space0
 70
     0
 10
0.0
 20
0.0
 30
0.0
  3
*Paper_Space0
  1

  0
ENDBLK
  5
25
330
23
100
AcDbEntity
  8
0
100
AcDbBlockEnd
  0
BLOCK
  5
88
330
87
100
AcDbEntity
  8
0
100
AcDbBlockBegin
  2
SW_CENTERMARKSYMBOL_0
 70
     0
 10
0.0
 20
0.0
 30
0.0
  3
SW_CENTERMARKSYMBOL_0
  1

  0
LINE
  5
8A
330
87
100
AcDbEntity
  8
FORMAT
 62
     0
100
AcDbLine
 10
0.0
 20
0.0
 30
0.0
 11
0.0
 21
2.5
 31
0.0
  0
LINE
  5
8B
330
87
100
AcDbEntity
  8
FORMAT
 62
     0
100
AcDbLine
 10
0.0
 20
0.0
 30
0.0
 11
-2.5
 21
0.0
 31
0.0
  0
LINE
  5
8C
330
87
100
AcDbEntity
  8
FORMAT
 62
     0
100
AcDbLine
 10
0.0
 20
0.0
 30
0.0
 11
0.0
 21
-2.5
 31
0.0
  0
LINE
  5
8D
330
87
100
AcDbEntity
  8
FORMAT
 62
     0
100
AcDbLine
 10
0.0
 20
0.0
 30
0.0
 11
2.5
 21
0.0
 31
0.0
  0
LINE
  5
8E
330
87
100
AcDbEntity
  8
FORMAT
 62
     0
100
AcDbLine
 10
0.0
 20
5.0
 30
0.0
 11
0.0
 21
71.5
 31
0.0
  0
LINE
  5
8F
330
87
100
AcDbEntity
  8
FORMAT
 62
     0
100
AcDbLine
 10
-5.0
 20
0.0
 30
0.0
 11
-71.5
 21
0.0
 31
0.0
  0
LINE
  5
90
330
87
100
AcDbEntity
  8
FORMAT
 62
     0
100
AcDbLine
 10
0.0
 20
-5.0
 30
0.0
 11
0.0
 21
-71.5
 31
0.0
  0
LINE
  5
91
330
87
100
AcDbEntity
  8
FORMAT
 62
     0
100
AcDbLine
 10
5.0
 20
0.0
 30
0.0
 11
71.5
 21
0.0
 31
0.0
  0
ENDBLK
  5
89
330
87
100
AcDbEntity
  8
0
100
AcDbBlockEnd
  0
ENDSEC
  0
SECTION
  2
ENTITIES
  0
CIRCLE
  5
83
330
1F
100
AcDbEntity
  8
0
  6
Continuous
 62
     7
370
    25
100
AcDbCircle
 10
142.9934680851
 20
119.1714893617
 30
0.0
 40
44.99999999999999
  0
CIRCLE
  5
84
330
1F
100
AcDbEntity
  8
0
  6
Continuous
 62
     7
370
    25
100
AcDbCircle
 10
142.9934680851
 20
119.1714893617
 30
0.0
 40
36.8
  0
CIRCLE
  5
85
330
1F
100
AcDbEntity
  8
0
  6
Continuous
 62
     7
370
    25
100
AcDbCircle
 10
142.9934680851
 20
119.1714893617
 30
0.0
 40
53.99999999999999
  0
CIRCLE
  5
86
330
1F
100
AcDbEntity
  8
0
  6
Continuous
 62
     7
370
    25
100
AcDbCircle
 10
142.9934680851
 20
119.1714893617
 30
0.0
 40
69.0
  0
INSERT
  5
92
330
1F
100
AcDbEntity
  8
FORMAT
 62
     7
100
AcDbBlockReference
  2
SW_CENTERMARKSYMBOL_0
 10
142.9934680851
 20
119.1714893617
 30
0.0
  0
LINE
  5
93
330
1F
100
AcDbEntity
  8
0
  6
Continuous
 62
     7
370
    25
100
AcDbLine
 10
211.9934680851
 20
218.8133207878
 30
0.0
 11
211.9934680851
 21
235.8133207878
 31
0.0
  0
LINE
  5
94
330
1F
100
AcDbEntity
  8
0
  6
Continuous
 62
     7
370
    25
100
AcDbLine
 10
73.9934680851
 20
235.8133207878
 30
0.0
 11
73.9934680851
 21
218.8133207878
 31
0.0
  0
LINE
  5
95
330
1F
100
AcDbEntity
  8
0
  6
Continuous
 62
     7
370
    25
100
AcDbLine
 10
196.9934680851
 20
235.8133207878
 30
0.0
 11
187.9934680851
 21
255.8133207878
 31
0.0
  0
LINE
  5
96
330
1F
100
AcDbEntity
  8
0
  6
Continuous
 62
     7
370
    25
100
AcDbLine
 10
97.9934680851
 20
255.8133207878
 30
0.0
 11
88.9934680851
 21
235.8133207878
 31
0.0
  0
LINE
  5
97
330
1F
100
AcDbEntity
  8
0
  6
Continuous
 62
     7
370
    25
100
AcDbLine
 10
187.9934680851
 20
255.8133207878
 30
0.0
 11
187.9934680851
 21
358.8133207878
 31
0.0
  0
LINE
  5
98
330
1F
100
AcDbEntity
  8
0
  6
Continuous
 62
     7
370
    25
100
AcDbLine
 10
97.9934680851
 20
358.8133207878
 30
0.0
 11
97.9934680851
 21
255.8133207878
 31
0.0
  0
LINE
  5
99
330
1F
100
AcDbEntity
  8
0
  6
Continuous
 62
     7
370
    25
100
AcDbLine
 10
211.9934680851
 20
218.8133207878
 30
0.0
 11
73.9934680851
 21
218.8133207878
 31
0.0
  0
LINE
  5
9A
330
1F
100
AcDbEntity
  8
0
  6
Continuous
 62
     7
370
    25
100
AcDbLine
 10
211.9934680851
 20
235.8133207878
 30
0.0
 11
73.9934680851
 21
235.8133207878
 31
0.0
  0
LINE
  5
9B
330
1F
100
AcDbEntity
  8
0
  6
Continuous
 62
     7
370
    25
100
AcDbLine
 10
187.9934680851
 20
255.8133207878
 30
0.0
 11
97.9934680851
 21
255.8133207878
 31
0.0
  0
LINE
  5
9C
330
1F
100
AcDbEntity
  8
0
  6
Continuous
 62
     7
370
    25
100
AcDbLine
 10
187.9934680851
 20
358.8133207878
 30
0.0
 11
97.9934680851
 21
358.8133207878
 31
0.0
  0
LINE
  5
9D
330
1F
100
AcDbEntity
  8
0
  6
Continuous
 62
     7
370
    25
100
AcDbLine
 10
51.428040638
 20
188.1714893617
 30
0.0
 11
34.428040638
 21
188.1714893617
 31
0.0
  0
LINE
  5
9E
330
1F
100
AcDbEntity
  8
0
  6
Continuous
 62
     7
370
    25
100
AcDbLine
 10
34.428040638
 20
50.1714893617
 30
0.0
 11
51.428040638
 21
50.1714893617
 31
0.0
  0
LINE
  5
9F
330
1F
100
AcDbEntity
  8
0
  6
Continuous
 62
     7
370
    25
100
AcDbLine
 10
34.428040638
 20
173.1714893617
 30
0.0
 11
14.428040638
 21
164.1714893617
 31
0.0
  0
LINE
  5
A0
330
1F
100
AcDbEntity
  8
0
  6
Continuous
 62
     7
370
    25
100
AcDbLine
 10
14.428040638
 20
74.1714893617
 30
0.0
 11
34.428040638
 21
65.1714893617
 31
0.0
  0
LINE
  5
A1
330
1F
100
AcDbEntity
  8
0
  6
Continuous
 62
     7
370
    25
100
AcDbLine
 10
14.428040638
 20
164.1714893617
 30
0.0
 11
-88.571959362
 21
164.1714893617
 31
0.0
  0
LINE
  5
A2
330
1F
100
AcDbEntity
  8
0
  6
Continuous
 62
     7
370
    25
100
AcDbLine
 10
-88.571959362
 20
74.1714893617
 30
0.0
 11
14.428040638
 21
74.1714893617
 31
0.0
  0
LINE
  5
A3
330
1F
100
AcDbEntity
  8
0
  6
Continuous
 62
     7
370
    25
100
AcDbLine
 10
51.428040638
 20
188.1714893617
 30
0.0
 11
51.428040638
 21
50.1714893617
 31
0.0
  0
LINE
  5
A4
330
1F
100
AcDbEntity
  8
0
  6
Continuous
 62
     7
370
    25
100
AcDbLine
 10
34.428040638
 20
188.1714893617
 30
0.0
 11
34.428040638
 21
50.1714893617
 31
0.0
  0
LINE
  5
A5
330
1F
100
AcDbEntity
  8
0
  6
Continuous
 62
     7
370
    25
100
AcDbLine
 10
14.428040638
 20
164.1714893617
 30
0.0
 11
14.428040638
 21
74.1714893617
 31
0.0
  0
LINE
  5
A6
330
1F
100
AcDbEntity
  8
0
  6
Continuous
 62
     7
370
    25
100
AcDbLine
 10
-88.571959362
 20
164.1714893617
 30
0.0
 11
-88.571959362
 21
74.1714893617
 31
0.0
  0
LINE
  5
A7
330
1F
100
AcDbEntity
  8
0
  6
Continuous
 62
     7
370
    25
100
AcDbLine
 10
238.4336999666
 20
50.1714893617
 30
0.0
 11
255.4336999666
 21
50.1714893617
 31
0.0
  0
LINE
  5
A8
330
1F
100
AcDbEntity
  8
0
  6
Continuous
 62
     7
370
    25
100
AcDbLine
 10
255.4336999666
 20
188.1714893617
 30
0.0
 11
238.4336999666
 21
188.1714893617
 31
0.0
  0
LINE
  5
A9
330
1F
100
AcDbEntity
  8
0
  6
Continuous
 62
     7
370
    25
100
AcDbLine
 10
255.4336999666
 20
65.1714893617
 30
0.0
 11
275.4336999666
 21
74.1714893617
 31
0.0
  0
LINE
  5
AA
330
1F
100
AcDbEntity
  8
0
  6
Continuous
 62
     7
370
    25
100
AcDbLine
 10
275.4336999666
 20
164.1714893617
 30
0.0
 11
255.4336999666
 21
173.1714893617
 31
0.0
  0
LINE
  5
AB
330
1F
100
AcDbEntity
  8
0
  6
Continuous
 62
     7
370
    25
100
AcDbLine
 10
275.4336999666
 20
74.1714893617
 30
0.0
 11
378.4336999666
 21
74.1714893617
 31
0.0
  0
LINE
  5
AC
330
1F
100
AcDbEntity
  8
0
  6
Continuous
 62
     7
370
    25
100
AcDbLine
 10
378.4336999666
 20
164.1714893617
 30
0.0
 11
275.4336999666
 21
164.1714893617
 31
0.0
  0
LINE
  5
AD
330
1F
100
AcDbEntity
  8
0
  6
Continuous
 62
     7
370
    25
100
AcDbLine
 10
238.4336999666
 20
119.1714893617
 30
0.0
 11
238.4336999666
 21
188.1714893617
 31
0.0
  0
LINE
  5
AE
330
1F
100
AcDbEntity
  8
0
  6
Continuous
 62
     7
370
    25
100
AcDbLine
 10
238.4336999666
 20
50.1714893617
 30
0.0
 11
238.4336999666
 21
119.1714893617
 31
0.0
  0
LINE
  5
AF
330
1F
100
AcDbEntity
  8
0
  6
Continuous
 62
     7
370
    25
100
AcDbLine
 10
255.4336999666
 20
119.1714893617
 30
0.0
 11
255.4336999666
 21
188.1714893617
 31
0.0
  0
LINE
  5
B0
330
1F
100
AcDbEntity
  8
0
  6
Continuous
 62
     7
370
    25
100
AcDbLine
 10
255.4336999666
 20
50.1714893617
 30
0.0
 11
255.4336999666
 21
119.1714893617
 31
0.0
  0
LINE
  5
B1
330
1F
100
AcDbEntity
  8
0
  6
Continuous
 62
     7
370
    25
100
AcDbLine
 10
275.4336999666
 20
119.1714893617
 30
0.0
 11
275.4336999666
 21
164.1714893617
 31
0.0
  0
LINE
  5
B2
330
1F
100
AcDbEntity
  8
0
  6
Continuous
 62
     7
370
    25
100
AcDbLine
 10
275.4336999666
 20
74.1714893617
 30
0.0
 11
275.4336999666
 21
119.1714893617
 31
0.0
  0
LINE
  5
B3
330
1F
100
AcDbEntity
  8
0
  6
Continuous
 62
     7
370
    25
100
AcDbLine
 10
378.4336999666
 20
119.1714893617
 30
0.0
 11
378.4336999666
 21
164.1714893617
 31
0.0
  0
LINE
  5
B4
330
1F
100
AcDbEntity
  8
0
  6
Continuous
 62
     7
370
    25
100
AcDbLine
 10
378.4336999666
 20
74.1714893617
 30
0.0
 11
378.4336999666
 21
119.1714893617
 31
0.0
  0
LINE
  5
B5
330
1F
100
AcDbEntity
  8
0
  6
Continuous
 62
     7
370
    25
100
AcDbLine
 10
73.9934680851
 20
23.2632311813
 30
0.0
 11
73.9934680851
 21
6.2632311813
 31
0.0
  0
LINE
  5
B6
330
1F
100
AcDbEntity
  8
0
  6
Continuous
 62
     7
370
    25
100
AcDbLine
 10
211.9934680851
 20
6.2632311813
 30
0.0
 11
211.9934680851
 21
23.2632311813
 31
0.0
  0
LINE
  5
B7
330
1F
100
AcDbEntity
  8
0
  6
Continuous
 62
     7
370
    25
100
AcDbLine
 10
88.9934680851
 20
6.2632311813
 30
0.0
 11
97.9934680851
 21
-13.7367688187
 31
0.0
  0
LINE
  5
B8
330
1F
100
AcDbEntity
  8
0
  6
Continuous
 62
     7
370
    25
100
AcDbLine
 10
187.9934680851
 20
-13.7367688187
 30
0.0
 11
196.9934680851
 21
6.2632311813
 31
0.0
  0
LINE
  5
B9
330
1F
100
AcDbEntity
  8
0
  6
Continuous
 62
     7
370
    25
100
AcDbLine
 10
97.9934680851
 20
-13.7367688187
 30
0.0
 11
97.9934680851
 21
-116.7367688187
 31
0.0
  0
LINE
  5
BA
330
1F
100
AcDbEntity
  8
0
  6
Continuous
 62
     7
370
    25
100
AcDbLine
 10
187.9934680851
 20
-116.7367688187
 30
0.0
 11
187.9934680851
 21
-13.7367688187
 31
0.0
  0
LINE
  5
BB
330
1F
100
AcDbEntity
  8
0
  6
Continuous
 62
     7
370
    25
100
AcDbLine
 10
73.9934680851
 20
23.2632311813
 30
0.0
 11
211.9934680851
 21
23.2632311813
 31
0.0
  0
LINE
  5
BC
330
1F
100
AcDbEntity
  8
0
  6
Continuous
 62
     7
370
    25
100
AcDbLine
 10
73.9934680851
 20
6.2632311813
 30
0.0
 11
211.9934680851
 21
6.2632311813
 31
0.0
  0
LINE
  5
BD
330
1F
100
AcDbEntity
  8
0
  6
Continuous
 62
     7
370
    25
100
AcDbLine
 10
97.9934680851
 20
-13.7367688187
 30
0.0
 11
187.9934680851
 21
-13.7367688187
 31
0.0
  0
LINE
  5
BE
330
1F
100
AcDbEntity
  8
0
  6
Continuous
 62
     7
370
    25
100
AcDbLine
 10
97.9934680851
 20
-116.7367688187
 30
0.0
 11
187.9934680851
 21
-116.7367688187
 31
0.0
  0
LINE
  5
BF
330
1F
100
AcDbEntity
  8
0
  6
Continuous
 62
     7
370
    25
100
AcDbLine
 10
300.9511147957
 20
-12.160713155
 30
0.0
 11
252.8814897359
 21
-59.0781408559
 31
0.0
  0
LINE
  5
C0
330
1F
100
AcDbEntity
  8
0
  6
Continuous
 62
     7
370
    25
100
AcDbLine
 10
315.7445240144
 20
-123.4849644175
 30
0.0
 11
363.8141490742
 21
-76.5675367166
 31
0.0
  0
LINE
  5
C1
330
1F
100
AcDbEntity
  8
0
  6
Continuous
 62
     7
370
    25
100
AcDbLine
 10
294.2460041602
 20
-17.276471611
 30
0.0
 11
294.0564475795
 21
-18.8901197238
 31
0.0
  0
LINE
  5
C2
330
1F
100
AcDbEntity
  8
0
  6
Continuous
 62
     7
370
    25
100
AcDbLine
 10
356.9194818581
 20
-83.2969432854
 30
0.0
 11
358.5372531665
 21
-83.1465839723
 31
0.0
  0
LINE
  5
C3
330
1F
100
AcDbEntity
  8
0
  6
Continuous
 62
     7
370
    25
100
AcDbLine
 10
301.4553683785
 20
21.8682730465
 30
0.0
 11
293.5215467667
 21
14.1246199308
 31
0.0
  0
LINE
  5
C4
330
1F
100
AcDbEntity
  8
0
  6
Continuous
 62
     7
370
    25
100
AcDbLine
 10
389.9115326605
 20
-84.6325095303
 30
0.0
 11
397.8453542723
 21
-76.8888564146
 31
0.0
  0
LWPOLYLINE
  5
C5
330
1F
100
AcDbEntity
  8
0
  6
Continuous
 62
     7
370
    25
100
AcDbPolyline
 90
      105
 70
   128
 43
0.0
 10
244.5141913997
 20
-80.4650873759
 10
244.5868021805
 20
-78.1558701157
 10
244.8043695741
 20
-75.8945470477
 10
245.1660997006
 20
-73.6893694943
 10
245.670672646
 20
-71.5483839095
 10
246.3162472784
 20
-69.4794025173
 10
247.1004679659
 20
-67.4899748065
 10
248.0204731724
 20
-65.5873599831
 10
249.0729058985
 20
-63.7785004823
 10
250.2539259315
 20
-62.0699966362
 10
251.5592238572
 20
-60.46808259
 10
252.9840367851
 20
-58.9786035544
 10
254.5231657273
 20
-57.6069944768
 10
256.1709945693
 20
-56.3582602101
 10
257.9215105622
 20
-55.2369572501
 10
259.7683262632
 20
-54.2471771098
 10
261.7047028419
 20
-53.3925313896
 10
263.7235746702
 20
-52.6761385989
 10
265.8175751038
 20
-52.1006127774
 10
267.9790633622
 20
-51.6680539564
 10
270.2001524091
 20
-51.3800404962
 10
272.4727377314
 20
-51.2376233266
 10
274.7885269118
 20
-51.2413221124
 10
277.1390698867
 20
-51.3911233571
 10
279.5157897797
 20
-51.6864804523
 10
281.9100141976
 20
-52.126315672
 10
284.3130068752
 20
-52.7090241051
 10
286.7159995528
 20
-53.4324795117
 10
289.1102239707
 20
-54.2940420816
 10
291.4869438636
 20
-55.2905680663
 10
293.8374868385
 20
-56.4184212506
 10
296.1532760189
 20
-57.6734862206
 10
298.4258613413
 20
-59.0511833802
 10
300.6469503882
 20
-60.5464856619
 10
302.8084386465
 20
-62.15393687
 10
304.9024390801
 20
-63.8676715892
 10
306.9213109084
 20
-65.6814365873
 10
308.8576874872
 20
-67.5886136327
 10
310.7045031881
 20
-69.5822436431
 10
312.4550191811
 20
-71.6550520788
 10
314.102848023
 20
-73.7994754866
 10
315.6419769653
 20
-76.0076890981
 10
317.0667898932
 20
-78.2716353812
 10
318.3720878189
 20
-80.5830534415
 10
319.5531078518
 20
-82.9335091651
 10
320.6055405779
 20
-85.3144259941
 10
321.5255457844
 20
-87.7171162211
 10
322.3097664719
 20
-90.1328126899
 10
322.9553411043
 20
-92.5527007863
 10
323.4599140498
 20
-94.9679506009
 10
323.8216441763
 20
-97.3697491492
 10
324.0392115698
 20
-99.7493325286
 10
324.1118223506
 20
-102.0980178974
 10
324.0392115698
 20
-104.4072351576
 10
323.8216441763
 20
-106.6685582257
 10
323.4599140498
 20
-108.873735779
 10
322.9553411043
 20
-111.0147213639
 10
322.3097664719
 20
-113.0837027561
 10
321.5255457844
 20
-115.0731304668
 10
320.6055405779
 20
-116.9757452902
 10
319.5531078518
 20
-118.784604791
 10
318.3720878189
 20
-120.4931086372
 10
317.0667898932
 20
-122.0950226834
 10
315.6419769653
 20
-123.584501719
 10
314.102848023
 20
-124.9561107965
 10
312.4550191811
 20
-126.2048450632
 10
310.7045031881
 20
-127.3261480232
 10
308.8576874872
 20
-128.3159281635
 10
306.9213109084
 20
-129.1705738838
 10
304.9024390801
 20
-129.8869666745
 10
302.8084386465
 20
-130.4624924959
 10
300.6469503882
 20
-130.8950513169
 10
298.4258613413
 20
-131.1830647772
 10
296.1532760189
 20
-131.3254819468
 10
293.8374868385
 20
-131.321783161
 10
291.4869438636
 20
-131.1719819162
 10
289.1102239707
 20
-130.876624821
 10
286.7159995528
 20
-130.4367896014
 10
284.3130068752
 20
-129.8540811683
 10
281.9100141976
 20
-129.1306257616
 10
279.5157897797
 20
-128.2690631918
 10
277.1390698867
 20
-127.272537207
 10
274.7885269118
 20
-126.1446840227
 10
272.4727377314
 20
-124.8896190528
 10
270.2001524091
 20
-123.5119218932
 10
267.9790633622
 20
-122.0166196114
 10
265.8175751038
 20
-120.4091684034
 10
263.7235746702
 20
-118.6954336842
 10
261.7047028419
 20
-116.881668686
 10
259.7683262632
 20
-114.9744916406
 10
257.9215105622
 20
-112.9808616302
 10
256.1709945693
 20
-110.9080531945
 10
254.5231657273
 20
-108.7636297867
 10
252.9840367851
 20
-106.5554161752
 10
251.5592238572
 20
-104.2914698921
 10
250.2539259315
 20
-101.9800518318
 10
249.0729058985
 20
-99.6295961082
 10
248.0204731724
 20
-97.2486792793
 10
247.1004679659
 20
-94.8459890523
 10
246.3162472784
 20
-92.4302925834
 10
245.670672646
 20
-90.010404487
 10
245.1660997006
 20
-87.5951546724
 10
244.8043695741
 20
-85.1933561242
 10
244.5868021805
 20
-82.8137727448
 10
244.5141913997
 20
-80.4650873759
  0
LWPOLYLINE
  5
C6
330
1F
100
AcDbEntity
  8
0
  6
Continuous
 62
     7
370
    25
100
AcDbPolyline
 90
       95
 70
   128
 43
0.0
 10
251.7664199974
 20
-82.4360877123
 10
251.8391004763
 20
-80.3489501232
 10
252.0568173044
 20
-78.3106401908
 10
252.4185981053
 20
-76.3302615022
 10
252.9228270784
 20
-74.4166589092
 10
253.5672522144
 20
-72.5783790257
 10
254.3489953545
 20
-70.8236320557
 10
255.2645650438
 20
-69.1602551254
 10
256.309872126
 20
-67.5956772797
 10
257.4802480059
 20
-66.1368863032
 10
258.7704655006
 20
-64.7903975105
 10
260.1747621856
 20
-63.5622246474
 10
261.6868661311
 20
-62.4578530321
 10
263.3000239137
 20
-61.4822150563
 10
265.0070307792
 20
-60.639668156
 10
266.8002628206
 20
-59.9339753503
 10
268.6717110281
 20
-59.3682884344
 10
270.6130170599
 20
-58.9451339035
 10
272.615510572
 20
-58.6664016685
 10
274.6702479421
 20
-58.5333366152
 10
276.7680522145
 20
-58.5465330443
 10
278.8995540859
 20
-58.7059320175
 10
281.0552337516
 20
-59.0108216203
 10
283.225463423
 20
-59.4598401416
 10
285.4005503274
 20
-60.0509821557
 10
287.5707799987
 20
-60.781607479
 10
289.7264596644
 20
-61.6484529612
 10
291.8579615359
 20
-62.6476470602
 10
293.9557658082
 20
-63.7747271325
 10
296.0105031783
 20
-65.0246593649
 10
298.0129966904
 20
-66.3918612566
 10
299.9543027222
 20
-67.870226552
 10
301.8257509298
 20
-69.4531525129
 10
303.6189829711
 20
-71.1335694077
 10
305.3259898366
 20
-72.9039720866
 10
306.9391476192
 20
-74.7564535015
 10
308.4512515647
 20
-76.6827400206
 10
309.8555482497
 20
-78.6742283808
 10
311.1457657444
 20
-80.7220241116
 10
312.3161416243
 20
-82.8169812601
 10
313.3614487065
 20
-84.9497432392
 10
314.2770183958
 20
-87.1107846162
 10
315.0587615359
 20
-89.2904536556
 10
315.703186672
 20
-91.4790154264
 10
316.207415645
 20
-93.6666952804
 10
316.569196446
 20
-95.8437225084
 10
316.786913274
 20
-98.0003739783
 10
316.8595937529
 20
-100.127017561
 10
316.786913274
 20
-102.2141551502
 10
316.569196446
 20
-104.2524650825
 10
316.207415645
 20
-106.2328437712
 10
315.703186672
 20
-108.1464463641
 10
315.0587615359
 20
-109.9847262477
 10
314.2770183958
 20
-111.7394732176
 10
313.3614487065
 20
-113.402850148
 10
312.3161416243
 20
-114.9674279937
 10
311.1457657444
 20
-116.4262189702
 10
309.8555482497
 20
-117.7727077629
 10
308.4512515647
 20
-119.0008806259
 10
306.9391476192
 20
-120.1052522412
 10
305.3259898366
 20
-121.0808902171
 10
303.6189829711
 20
-121.9234371173
 10
301.8257509298
 20
-122.6291299231
 10
299.9543027222
 20
-123.1948168389
 10
298.0129966904
 20
-123.6179713698
 10
296.0105031783
 20
-123.8967036048
 10
293.9557658082
 20
-124.0297686582
 10
291.8579615359
 20
-124.016572229
 10
289.7264596644
 20
-123.8571732558
 10
287.5707799987
 20
-123.5522836531
 10
285.4005503274
 20
-123.1032651318
 10
283.225463423
 20
-122.5121231176
 10
281.0552337516
 20
-121.7814977944
 10
278.8995540859
 20
-120.9146523121
 10
276.7680522145
 20
-119.9154582131
 10
274.6702479421
 20
-118.7883781408
 10
272.615510572
 20
-117.5384459085
 10
270.6130170599
 20
-116.1712440168
 10
268.6717110281
 20
-114.6928787214
 10
266.8002628206
 20
-113.1099527604
 10
265.0070307792
 20
-111.4295358656
 10
263.3000239137
 20
-109.6591331867
 10
261.6868661311
 20
-107.8066517719
 10
260.1747621856
 20
-105.8803652528
 10
258.7704655006
 20
-103.8888768926
 10
257.4802480059
 20
-101.8410811618
 10
256.309872126
 20
-99.7461240132
 10
255.2645650438
 20
-97.6133620341
 10
254.3489953545
 20
-95.4523206572
 10
253.5672522144
 20
-93.2726516178
 10
252.9228270784
 20
-91.084089847
 10
252.4185981053
 20
-88.8964099929
 10
252.0568173044
 20
-86.7193827649
 10
251.8391004763
 20
-84.562731295
 10
251.7664199974
 20
-82.4360877123
  0
LWPOLYLINE
  5
C7
330
1F
100
AcDbEntity
  8
0
  6
Continuous
 62
     7
370
    25
100
AcDbPolyline
 90
       54
 70
   128
 43
0.0
 10
300.9511147957
 20
-12.160713155
 10
301.0536618449
 20
-12.0611758535
 10
302.5927907871
 20
-10.689566776
 10
304.2406196291
 20
-9.4408325093
 10
305.991135622
 20
-8.3195295493
 10
307.837951323
 20
-7.329749409
 10
309.7743279017
 20
-6.4751036887
 10
311.79319973
 20
-5.758710898
 10
313.8872001636
 20
-5.1831850766
 10
316.048688422
 20
-4.7506262556
 10
318.2697774688
 20
-4.4626127953
 10
320.5423627912
 20
-4.3201956257
 10
322.8581519716
 20
-4.3238944115
 10
325.2086949465
 20
-4.4736956563
 10
327.5854148394
 20
-4.7690527515
 10
329.9796392574
 20
-5.2088879711
 10
332.382631935
 20
-5.7915964042
 10
334.7856246126
 20
-6.5150518109
 10
337.1798490305
 20
-7.3766143807
 10
339.5565689234
 20
-8.3731403655
 10
341.9071118983
 20
-9.5009935498
 10
344.2229010787
 20
-10.7560585197
 10
346.4954864011
 20
-12.1337556793
 10
348.7165754479
 20
-13.6290579611
 10
350.8780637063
 20
-15.2365091691
 10
352.9720641399
 20
-16.9502438883
 10
354.9909359682
 20
-18.7640088865
 10
356.927312547
 20
-20.6711859319
 10
358.7741282479
 20
-22.6648159423
 10
360.5246442409
 20
-24.737624378
 10
362.1724730828
 20
-26.8820477858
 10
363.7116020251
 20
-29.0902613973
 10
365.136414953
 20
-31.3542076804
 10
366.4417128787
 20
-33.6656257407
 10
367.6227329116
 20
-36.0160814643
 10
368.6751656377
 20
-38.3969982933
 10
369.5951708442
 20
-40.7996885202
 10
370.3793915317
 20
-43.2153849891
 10
371.0249661641
 20
-45.6352730855
 10
371.5295391096
 20
-48.0505229001
 10
371.8912692361
 20
-50.4523214483
 10
372.1088366296
 20
-52.8319048277
 10
372.1814474104
 20
-55.1805901966
 10
372.1088366296
 20
-57.4898074568
 10
371.8912692361
 20
-59.7511305248
 10
371.5295391096
 20
-61.9563080782
 10
371.0249661641
 20
-64.097293663
 10
370.3793915317
 20
-66.1662750552
 10
369.5951708442
 20
-68.155702766
 10
368.6751656377
 20
-70.0583175894
 10
367.6227329116
 20
-71.8671770902
 10
366.4417128787
 20
-73.5756809363
 10
365.136414953
 20
-75.1775949825
 10
363.8141490742
 20
-76.5675367166
  0
LWPOLYLINE
  5
C8
330
1F
100
AcDbEntity
  8
0
  6
Continuous
 62
     7
370
    25
100
AcDbPolyline
 90
       79
 70
   128
 43
0.0
 10
294.2460041602
 20
-17.276471611
 10
294.2478233672
 20
-17.2610105367
 10
294.609325906
 20
-14.8326180367
 10
295.113891505
 20
-12.4662444348
 10
295.7599878148
 20
-10.1690763299
 10
296.5456526624
 20
-7.9480901462
 10
297.4685000093
 20
-5.8100309455
 10
298.5257271985
 20
-3.7613919436
 10
299.7141234658
 20
-1.8083947896
 10
301.0300796908
 20
0.0430293283
 10
302.4695993576
 20
1.7872576958
 10
304.0283106923
 20
3.4189931488
 10
305.7014799399
 20
4.9332801603
 10
307.4840257404
 20
6.3255198903
 10
309.3705345607
 20
7.5914841527
 10
311.3552771355
 20
8.7273282556
 10
313.4322258669
 20
9.7296026777
 10
315.5950731298
 20
10.5952635446
 10
317.8372504283
 20
11.3216818726
 10
320.1519483434
 20
11.9066515532
 10
322.5321372138
 20
12.3483960527
 10
324.9705884841
 20
12.6455738076
 10
327.4598966579
 20
12.7972822987
 10
329.992501788
 20
12.8030607925
 10
332.560712436
 20
12.6628917397
 10
335.1567290305
 20
12.3772008292
 10
337.7726675545
 20
11.9468556949
 10
340.4005834886
 20
11.3731632808
 10
343.0324959385
 20
10.657865872
 10
345.6604118726
 20
9.8031358032
 10
348.2763503966
 20
8.8115688614
 10
350.8723669911
 20
7.6861764029
 10
353.4405776391
 20
6.4303762076
 10
355.9731827693
 20
5.0479820995
 10
358.462490943
 20
3.5431923639
 10
360.9009422133
 20
1.9205769979
 10
363.2811310837
 20
0.185063831
 10
365.5958289989
 20
-1.6580764403
 10
367.8380062973
 20
-3.6032462597
 10
370.0008535602
 20
-5.6445382103
 10
372.0778022916
 20
-7.7757529555
 10
374.0625448665
 20
-9.9904180663
 10
375.9490536867
 20
-12.2818076774
 10
377.7315994872
 20
-14.6429629139
 10
379.4047687348
 20
-17.066713025
 10
380.9634800696
 20
-19.5456971613
 10
382.4029997364
 20
-22.0723867293
 10
383.7189559613
 20
-24.639108256
 10
384.9073522286
 20
-27.2380666924
 10
385.9645794178
 20
-29.8613690872
 10
386.8874267647
 20
-32.5010485571
 10
387.6730916123
 20
-35.1490884825
 10
388.3191879222
 20
-37.797446853
 10
388.8237535211
 20
-40.4380806914
 10
389.18525606
 20
-43.0629704795
 10
389.4025976674
 20
-45.6641445133
 10
389.4751182841
 20
-48.2337031127
 10
389.4025976674
 20
-50.7638426127
 10
389.18525606
 20
-53.2468790627
 10
388.8237535211
 20
-55.6752715628
 10
388.3191879222
 20
-58.0416451647
 10
387.6730916123
 20
-60.3388132696
 10
386.8874267647
 20
-62.5597994533
 10
385.9645794178
 20
-64.697858654
 10
384.9073522286
 20
-66.7464976559
 10
383.7189559613
 20
-68.6994948099
 10
382.4029997364
 20
-70.5509189278
 10
380.9634800696
 20
-72.2951472953
 10
379.4047687348
 20
-73.9268827483
 10
377.7315994872
 20
-75.4411697598
 10
375.9490536867
 20
-76.8334094898
 10
374.0625448665
 20
-78.0993737522
 10
372.0778022916
 20
-79.2352178551
 10
370.0008535602
 20
-80.2374922772
 10
367.8380062973
 20
-81.1031531441
 10
365.5958289989
 20
-81.8295714721
 10
363.2811310837
 20
-82.4145411527
 10
360.9009422133
 20
-82.8562856522
 10
358.5372531665
 20
-83.1465839723
  0
LWPOLYLINE
  5
C9
330
1F
100
AcDbEntity
  8
0
  6
Continuous
 62
     7
370
    25
100
AcDbPolyline
 90
       66
 70
   128
 43
0.0
 10
301.4553683785
 20
21.8682730465
 10
302.4775140546
 20
22.8311787612
 10
304.43392975
 20
24.4976135318
 10
306.4992757896
 20
26.0387567033
 10
308.6685765739
 20
27.450895527
 10
310.9366060672
 20
28.7306280366
 10
313.2979003879
 20
29.8748712445
 10
315.746770971
 20
30.8808685685
 10
318.2773182729
 20
31.746196473
 10
320.8834459835
 20
32.4687703073
 10
323.5588757129
 20
33.0468493278
 10
326.2971621164
 20
33.4790408913
 10
329.0917084223
 20
33.7643038107
 10
331.9357823237
 20
33.9019508624
 10
334.8225321976
 20
33.8916504428
 10
337.7450036107
 20
33.7334273665
 10
340.6961560732
 20
33.4276628066
 10
343.6688800005
 20
32.9750933768
 10
346.6560138403
 20
32.3768093565
 10
349.6503613254
 20
31.6342520644
 10
352.6447088105
 20
30.7492103859
 10
355.6318426502
 20
29.7238164639
 10
358.6045665775
 20
28.5605405624
 10
361.5557190401
 20
27.2621851147
 10
364.4781904531
 20
25.8318779729
 10
367.364940327
 20
24.2730648722
 10
370.2090142285
 20
22.5895011298
 10
373.0035605344
 20
20.7852425984
 10
375.7418469379
 20
18.8646358946
 10
378.4172766672
 20
16.8323079284
 10
381.0234043778
 20
14.6931547557
 10
383.5539516797
 20
12.452329784
 10
386.0028222629
 20
10.1152313569
 10
388.3641165835
 20
7.6874897491
 10
390.6321460768
 20
5.1749536029
 10
392.8014468611
 20
2.5836758379
 10
394.8667929007
 20
-0.0801009307
 10
396.8232085962
 20
-2.8099594315
 10
398.6659807707
 20
-5.5993231962
 10
400.3906700247
 20
-8.4414724031
 10
401.9931214308
 20
-11.3295600659
 10
403.4694745431
 20
-14.2566285285
 10
404.8161726976
 20
-17.2156262264
 10
406.0299715806
 20
-20.1994246752
 10
407.1079470442
 20
-23.2008356429
 10
408.0475021511
 20
-26.2126284678
 10
408.8463734308
 20
-29.2275474769
 10
409.5026363323
 20
-32.2383294665
 10
410.014709861
 20
-35.2377211989
 10
410.3813603867
 20
-38.2184968767
 10
410.6017046162
 20
-41.1734755503
 10
410.6752117211
 20
-44.0955384173
 10
410.6017046162
 20
-46.9776459721
 10
410.3813603867
 20
-49.8128549654
 10
410.014709861
 20
-52.5943351302
 10
409.5026363323
 20
-55.3153856372
 10
408.8463734308
 20
-57.9694512375
 10
408.0475021511
 20
-60.5501380545
 10
407.1079470442
 20
-63.0512289877
 10
406.0299715806
 20
-65.4666986898
 10
404.8161726976
 20
-67.7907280829
 10
403.4694745431
 20
-70.0177183766
 10
401.9931214308
 20
-72.1423045562
 10
400.3906700247
 20
-74.1593683074
 10
398.6659807707
 20
-76.0640503471
 10
397.8453542723
 20
-76.8888564146
  0
LWPOLYLINE
  5
CA
330
1F
100
AcDbEntity
  8
0
  6
Continuous
 62
     7
370
    25
100
AcDbPolyline
 90
       96
 70
   128
 43
0.0
 10
280.6916893178
 20
-18.6686980666
 10
280.7651964227
 20
-15.7865905117
 10
280.9855406523
 20
-12.9513815185
 10
281.352191178
 20
-10.1699013536
 10
281.8642647066
 20
-7.4488508466
 10
282.5205276082
 20
-4.7947852463
 10
283.3193988879
 20
-2.2140984293
 10
284.2589539948
 20
0.2869925038
 10
285.3369294584
 20
2.702462206
 10
286.5507283413
 20
5.0264915991
 10
287.8974264959
 20
7.2534818928
 10
289.3737796081
 20
9.3780680724
 10
290.9762310142
 20
11.3951318236
 10
292.7009202682
 20
13.2998138633
 10
294.5436924428
 20
15.0875256455
 10
296.5001081382
 20
16.7539604161
 10
298.5654541778
 20
18.2951035877
 10
300.7347549621
 20
19.7072424113
 10
303.0027844554
 20
20.9869749209
 10
305.3640787761
 20
22.1312181288
 10
307.8129493592
 20
23.1372154528
 10
310.3434966611
 20
24.0025433574
 10
312.9496243717
 20
24.7251171917
 10
315.625054101
 20
25.3031962121
 10
318.3633405046
 20
25.7353877756
 10
321.1578868105
 20
26.020650695
 10
324.0019607119
 20
26.1582977467
 10
326.8887105858
 20
26.1479973271
 10
329.8111819989
 20
25.9897742508
 10
332.7623344614
 20
25.6840096909
 10
335.7350583887
 20
25.2314402612
 10
338.7221922285
 20
24.6331562409
 10
341.7165397136
 20
23.8905989487
 10
344.7108871987
 20
23.0055572702
 10
347.6980210384
 20
21.9801633483
 10
350.6707449657
 20
20.8168874467
 10
353.6218974283
 20
19.518531999
 10
356.5443688413
 20
18.0882248572
 10
359.4311187152
 20
16.5294117565
 10
362.2751926167
 20
14.8458480141
 10
365.0697389226
 20
13.0415894827
 10
367.8080253261
 20
11.1209827789
 10
370.4834550554
 20
9.0886548127
 10
373.089582766
 20
6.9495016401
 10
375.6201300679
 20
4.7086766683
 10
378.0690006511
 20
2.3715782412
 10
380.4302949717
 20
-0.0561633666
 10
382.698324465
 20
-2.5686995128
 10
384.8676252493
 20
-5.1599772777
 10
386.9329712889
 20
-7.8237540464
 10
388.8893869844
 20
-10.5536125472
 10
390.7321591589
 20
-13.3429763118
 10
392.4568484129
 20
-16.1851255188
 10
394.059299819
 20
-19.0732131816
 10
395.5356529312
 20
-22.0002816441
 10
396.8823510858
 20
-24.9592793421
 10
398.0961499687
 20
-27.9430777909
 10
399.1741254324
 20
-30.9444887586
 10
400.1136805393
 20
-33.9562815834
 10
400.912551819
 20
-36.9712005926
 10
401.5688147205
 20
-39.9819825821
 10
402.0808882491
 20
-42.9813743145
 10
402.4475387749
 20
-45.9621499924
 10
402.6678830044
 20
-48.917128666
 10
402.7413901093
 20
-51.8391915329
 10
402.6678830044
 20
-54.7212990878
 10
402.4475387749
 20
-57.556508081
 10
402.0808882491
 20
-60.3379882458
 10
401.5688147205
 20
-63.0590387529
 10
400.912551819
 20
-65.7131043532
 10
400.1136805393
 20
-68.2937911702
 10
399.1741254324
 20
-70.7948821033
 10
398.0961499687
 20
-73.2103518055
 10
396.8823510858
 20
-75.5343811986
 10
395.5356529312
 20
-77.7613714923
 10
394.059299819
 20
-79.8859576719
 10
392.4568484129
 20
-81.9030214231
 10
390.7321591589
 20
-83.8077034628
 10
388.8893869844
 20
-85.595415245
 10
386.9329712889
 20
-87.2618500156
 10
384.8676252493
 20
-88.8029931872
 10
382.698324465
 20
-90.2151320108
 10
380.4302949717
 20
-91.4948645204
 10
378.0690006511
 20
-92.6391077283
 10
375.6201300679
 20
-93.6451050523
 10
373.089582766
 20
-94.5104329569
 10
370.4834550554
 20
-95.2330067912
 10
367.8080253261
 20
-95.8110858116
 10
365.0697389226
 20
-96.2432773751
 10
362.2751926167
 20
-96.5285402945
 10
359.4311187152
 20
-96.6661873462
 10
356.5443688413
 20
-96.6558869266
 10
353.6218974283
 20
-96.4976638503
 10
350.6707449657
 20
-96.1918992904
 10
347.6980210384
 20
-95.7393298606
 10
344.7707846602
 20
-95.1544441861
  0
ARC
  5
CB
330
1F
100
AcDbEntity
  8
0
  6
Continuous
 62
     7
370
    25
100
AcDbCircle
 10
343.223982932
 20
-18.473854516
 30
0.0
 40
62.53259716862888
100
AcDbArc
 50
180.1785265875
 51
191.3193839288
  0
ENDSEC
  0
SECTION
  2
OBJECTS
  0
DICTIONARY
  5
C
330
0
100
AcDbDictionary
281
     1
  3
ACAD_GROUP
350
D
  3
ACAD_LAYOUT
350
1A
  3
ACAD_MLINESTYLE
350
17
  3
ACAD_PLOTSETTINGS
350
19
  3
ACAD_PLOTSTYLENAME
350
E
  3
ACAD_SCALELIST
350
47
  0
DICTIONARY
  5
D
102
{ACAD_REACTORS
330
C
102
}
330
C
100
AcDbDictionary
281
     1
  0
DICTIONARY
  5
1A
102
{ACAD_REACTORS
330
C
102
}
330
C
100
AcDbDictionary
281
     1
  3
Layout1
350
1E
  3
Layout2
350
26
  3
Model
350
22
  0
DICTIONARY
  5
17
102
{ACAD_REACTORS
330
C
102
}
330
C
100
AcDbDictionary
281
     1
  3
Standard
350
18
  0
DICTIONARY
  5
19
102
{ACAD_REACTORS
330
C
102
}
330
C
100
AcDbDictionary
281
     1
  0
ACDBDICTIONARYWDFLT
  5
E
102
{ACAD_REACTORS
330
C
102
}
330
C
100
AcDbDictionary
281
     1
  3
Normal
350
F
100
AcDbDictionaryWithDefault
340
F
  0
DICTIONARY
  5
47
102
{ACAD_REACTORS
330
C
102
}
330
C
100
AcDbDictionary
281
     1
  3
A0
350
48
  3
A1
350
49
  3
A2
350
4A
  3
A3
350
4B
  3
A4
350
4C
  3
A5
350
4D
  3
A6
350
4E
  3
A7
350
4F
  3
A8
350
50
  3
A9
350
51
  3
B0
350
52
  3
B1
350
53
  3
B2
350
54
  3
B3
350
55
  3
B4
350
56
  3
B5
350
57
  3
B6
350
58
  3
B7
350
59
  3
B8
350
5A
  3
B9
350
5B
  3
C0
350
5C
  3
C1
350
5D
  3
C2
350
5E
  3
C3
350
5F
  3
C4
350
60
  3
C5
350
61
  3
C6
350
62
  3
C7
350
63
  3
C8
350
64
  3
C9
350
65
  3
D0
350
66
  3
D1
350
67
  3
D2
350
68
  0
LAYOUT
  5
1E
102
{ACAD_REACTORS
330
1A
102
}
330
1A
100
AcDbPlotSettings
  1

  2
none_device
  4

  6

 40
0.0
 41
0.0
 42
0.0
 43
0.0
 44
0.0
 45
0.0
 46
0.0
 47
0.0
 48
0.0
 49
0.0
140
0.0
141
0.0
142
1.0
143
1.0
 70
   688
 72
     1
 73
     0
 74
     5
  7

 75
    16
147
1.0
148
0.0
149
0.0
100
AcDbLayout
  1
Layout1
 70
     1
 71
     1
 10
0.0
 20
0.0
 11
420.0
 21
297.0
 12
0.0
 22
0.0
 32
0.0
 14
1.0000000000E+20
 24
1.0000000000E+20
 34
1.0000000000E+20
 15
-1.0000000000E+20
 25
-1.0000000000E+20
 35
-1.0000000000E+20
146
0.0
 13
0.0
 23
0.0
 33
0.0
 16
1.0
 26
0.0
 36
0.0
 17
0.0
 27
1.0
 37
0.0
 76
     0
330
1B
  0
LAYOUT
  5
26
102
{ACAD_REACTORS
330
1A
102
}
330
1A
100
AcDbPlotSettings
  1

  2
none_device
  4

  6

 40
0.0
 41
0.0
 42
0.0
 43
0.0
 44
0.0
 45
0.0
 46
0.0
 47
0.0
 48
0.0
 49
0.0
140
0.0
141
0.0
142
1.0
143
1.0
 70
   688
 72
     1
 73
     0
 74
     5
  7

 75
    16
147
1.0
148
0.0
149
0.0
100
AcDbLayout
  1
Layout2
 70
     1
 71
     2
 10
0.0
 20
0.0
 11
0.0
 21
0.0
 12
0.0
 22
0.0
 32
0.0
 14
0.0
 24
0.0
 34
0.0
 15
0.0
 25
0.0
 35
0.0
146
0.0
 13
0.0
 23
0.0
 33
0.0
 16
1.0
 26
0.0
 36
0.0
 17
0.0
 27
1.0
 37
0.0
 76
     0
330
23
  0
LAYOUT
  5
22
102
{ACAD_REACTORS
330
1A
102
}
330
1A
100
AcDbPlotSettings
  1

  2
none_device
  4
Letter_(8.50_x_11.00_Inches)
  6

 40
6.35
 41
6.35
 42
6.35000508
 43
6.35000508
 44
215.9
 45
279.4
 46
0.0
 47
0.0
 48
0.0
 49
0.0
140
0.0
141
0.0
142
1.0
143
1.0
 70
  1712
 72
     1
 73
     0
 74
     0
  7

 75
     0
147
1.0
148
0.0
149
0.0
100
AcDbLayout
  1
Model
 70
     1
 71
     0
 10
0.0
 20
0.0
 11
279.4
 21
215.9
 12
0.0
 22
0.0
 32
0.0
 14
0.0
 24
0.0
 34
0.0
 15
279.4
 25
215.9
 35
0.0
146
0.0
 13
0.0
 23
0.0
 33
0.0
 16
1.0
 26
0.0
 36
0.0
 17
0.0
 27
1.0
 37
0.0
 76
     0
330
1F
331
29
  0
MLINESTYLE
  5
18
102
{ACAD_REACTORS
330
17
102
}
330
17
100
AcDbMlineStyle
  2
Standard
 70
     0
  3

 62
   256
 51
90.0
 52
90.0
 71
     2
 49
0.5
 62
   256
  6
BYLAYER
 49
-0.5
 62
   256
  6
BYLAYER
  0
ACDBPLACEHOLDER
  5
F
102
{ACAD_REACTORS
330
E
102
}
330
E
  0
SCALE
  5
48
102
{ACAD_REACTORS
330
47
102
}
330
47
100
AcDbScale
 70
     0
300
1:1
140
1.0
141
1.0
290
     1
  0
SCALE
  5
49
102
{ACAD_REACTORS
330
47
102
}
330
47
100
AcDbScale
 70
     0
300
1:2
140
1.0
141
2.0
290
     0
  0
SCALE
  5
4A
102
{ACAD_REACTORS
330
47
102
}
330
47
100
AcDbScale
 70
     0
300
1:4
140
1.0
141
4.0
290
     0
  0
SCALE
  5
4B
102
{ACAD_REACTORS
330
47
102
}
330
47
100
AcDbScale
 70
     0
300
1:5
140
1.0
141
5.0
290
     0
  0
SCALE
  5
4C
102
{ACAD_REACTORS
330
47
102
}
330
47
100
AcDbScale
 70
     0
300
1:8
140
1.0
141
8.0
290
     0
  0
SCALE
  5
4D
102
{ACAD_REACTORS
330
47
102
}
330
47
100
AcDbScale
 70
     0
300
1:10
140
1.0
141
10.0
290
     0
  0
SCALE
  5
4E
102
{ACAD_REACTORS
330
47
102
}
330
47
100
AcDbScale
 70
     0
300
1:16
140
1.0
141
16.0
290
     0
  0
SCALE
  5
4F
102
{ACAD_REACTORS
330
47
102
}
330
47
100
AcDbScale
 70
     0
300
1:20
140
1.0
141
20.0
290
     0
  0
SCALE
  5
50
102
{ACAD_REACTORS
330
47
102
}
330
47
100
AcDbScale
 70
     0
300
1:30
140
1.0
141
30.0
290
     0
  0
SCALE
  5
51
102
{ACAD_REACTORS
330
47
102
}
330
47
100
AcDbScale
 70
     0
300
1:40
140
1.0
141
40.0
290
     0
  0
SCALE
  5
52
102
{ACAD_REACTORS
330
47
102
}
330
47
100
AcDbScale
 70
     0
300
1:50
140
1.0
141
50.0
290
     0
  0
SCALE
  5
53
102
{ACAD_REACTORS
330
47
102
}
330
47
100
AcDbScale
 70
     0
300
1:100
140
1.0
141
100.0
290
     0
  0
SCALE
  5
54
102
{ACAD_REACTORS
330
47
102
}
330
47
100
AcDbScale
 70
     0
300
2:1
140
2.0
141
1.0
290
     0
  0
SCALE
  5
55
102
{ACAD_REACTORS
330
47
102
}
330
47
100
AcDbScale
 70
     0
300
4:1
140
4.0
141
1.0
290
     0
  0
SCALE
  5
56
102
{ACAD_REACTORS
330
47
102
}
330
47
100
AcDbScale
 70
     0
300
8:1
140
8.0
141
1.0
290
     0
  0
SCALE
  5
57
102
{ACAD_REACTORS
330
47
102
}
330
47
100
AcDbScale
 70
     0
300
10:1
140
10.0
141
1.0
290
     0
  0
SCALE
  5
58
102
{ACAD_REACTORS
330
47
102
}
330
47
100
AcDbScale
 70
     0
300
100:1
140
100.0
141
1.0
290
     0
  0
SCALE
  5
59
102
{ACAD_REACTORS
330
47
102
}
330
47
100
AcDbScale
 70
     0
300
1/128" = 1'-0"
140
0.0078125
141
12.0
290
     0
  0
SCALE
  5
5A
102
{ACAD_REACTORS
330
47
102
}
330
47
100
AcDbScale
 70
     0
300
1/64" = 1'-0"
140
0.015625
141
12.0
290
     0
  0
SCALE
  5
5B
102
{ACAD_REACTORS
330
47
102
}
330
47
100
AcDbScale
 70
     0
300
1/32" = 1'-0"
140
0.03125
141
12.0
290
     0
  0
SCALE
  5
5C
102
{ACAD_REACTORS
330
47
102
}
330
47
100
AcDbScale
 70
     0
300
1/16" = 1'-0"
140
0.0625
141
12.0
290
     0
  0
SCALE
  5
5D
102
{ACAD_REACTORS
330
47
102
}
330
47
100
AcDbScale
 70
     0
300
3/32" = 1'-0"
140
0.09375
141
12.0
290
     0
  0
SCALE
  5
5E
102
{ACAD_REACTORS
330
47
102
}
330
47
100
AcDbScale
 70
     0
300
1/8" = 1'-0"
140
0.125
141
12.0
290
     0
  0
SCALE
  5
5F
102
{ACAD_REACTORS
330
47
102
}
330
47
100
AcDbScale
 70
     0
300
3/16" = 1'-0"
140
0.1875
141
12.0
290
     0
  0
SCALE
  5
60
102
{ACAD_REACTORS
330
47
102
}
330
47
100
AcDbScale
 70
     0
300
1/4" = 1'-0"
140
0.25
141
12.0
290
     0
  0
SCALE
  5
61
102
{ACAD_REACTORS
330
47
102
}
330
47
100
AcDbScale
 70
     0
300
3/8" = 1'-0"
140
0.375
141
12.0
290
     0
  0
SCALE
  5
62
102
{ACAD_REACTORS
330
47
102
}
330
47
100
AcDbScale
 70
     0
300
1/2" = 1'-0"
140
0.5
141
12.0
290
     0
  0
SCALE
  5
63
102
{ACAD_REACTORS
330
47
102
}
330
47
100
AcDbScale
 70
     0
300
3/4" = 1'-0"
140
0.75
141
12.0
290
     0
  0
SCALE
  5
64
102
{ACAD_REACTORS
330
47
102
}
330
47
100
AcDbScale
 70
     0
300
1" = 1'-0"
140
1.0
141
12.0
290
     0
  0
SCALE
  5
65
102
{ACAD_REACTORS
330
47
102
}
330
47
100
AcDbScale
 70
     0
300
1-1/2" = 1'-0"
140
1.5
141
12.0
290
     0
  0
SCALE
  5
66
102
{ACAD_REACTORS
330
47
102
}
330
47
100
AcDbScale
 70
     0
300
3" = 1'-0"
140
3.0
141
12.0
290
     0
  0
SCALE
  5
67
102
{ACAD_REACTORS
330
47
102
}
330
47
100
AcDbScale
 70
     0
300
6" = 1'-0"
140
6.0
141
12.0
290
     0
  0
SCALE
  5
68
102
{ACAD_REACTORS
330
47
102
}
330
47
100
AcDbScale
 70
     0
300
1'-0" = 1'-0"
140
12.0
141
12.0
290
     0
  0
ENDSEC
  0
EOF
